  0
SECTION
  2
HEADER
  9
$ACADVER
  1
AC1015
  9
$ACADMAINTVER
 70
     6
  9
$DWGCODEPAGE
  3
ANSI_1254
  9
$INSBASE
 10
0.0
 20
0.0
 30
0.0
  9
$EXTMIN
 10
0.0
 20
0.0
 30
0.0
  9
$EXTMAX
 10
279.4
 20
215.9
 30
0.0
  9
$LIMMIN
 10
0.0
 20
0.0
  9
$LIMMAX
 10
279.4
 20
215.9
  9
$ORTHOMODE
 70
     0
  9
$REGENMODE
 70
     1
  9
$FILLMODE
 70
     1
  9
$QTEXTMODE
 70
     0
  9
$MIRRTEXT
 70
     1
  9
$LTSCALE
 40
1.0
  9
$ATTMODE
 70
     1
  9
$TEXTSIZE
 40
3.5
  9
$TRACEWID
 40
1.0
  9
$TEXTSTYLE
  7
Standard
  9
$CLAYER
  8
0
  9
$CELTYPE
  6
ByLayer
  9
$CECOLOR
 62
   256
  9
$CELTSCALE
 40
1.0
  9
$DISPSILH
 70
     0
  9
$DIMSCALE
 40
1.0
  9
$DIMASZ
 40
3.5
  9
$DIMEXO
 40
1.0
  9
$DIMDLI
 40
3.75
  9
$DIMRND
 40
0.0
  9
$DIMDLE
 40
0.0
  9
$DIMEXE
 40
1.0
  9
$DIMTP
 40
0.0
  9
$DIMTM
 40
0.0
  9
$DIMTXT
 40
3.5
  9
$DIMCEN
 40
2.5
  9
$DIMTSZ
 40
0.0
  9
$DIMTOL
 70
     0
  9
$DIMLIM
 70
     0
  9
$DIMTIH
 70
     1
  9
$DIMTOH
 70
     1
  9
$DIMSE1
 70
     0
  9
$DIMSE2
 70
     0
  9
$DIMTAD
 70
     1
  9
$DIMZIN
 70
     0
  9
$DIMBLK
  1

  9
$DIMASO
 70
     1
  9
$DIMSHO
 70
     1
  9
$DIMPOST
  1

  9
$DIMAPOST
  1

  9
$DIMALT
 70
     0
  9
$DIMALTD
 70
     3
  9
$DIMALTF
 40
0.0393700787
  9
$DIMLFAC
 40
1.0
  9
$DIMTOFL
 70
     1
  9
$DIMTVP
 40
0.0
  9
$DIMTIX
 70
     0
  9
$DIMSOXD
 70
     0
  9
$DIMSAH
 70
     0
  9
$DIMBLK1
  1

  9
$DIMBLK2
  1

  9
$DIMSTYLE
  2
ISO-25
  9
$DIMCLRD
 70
     0
  9
$DIMCLRE
 70
     0
  9
$DIMCLRT
 70
     0
  9
$DIMTFAC
 40
1.0
  9
$DIMGAP
 40
1.524
  9
$DIMJUST
 70
     0
  9
$DIMSD1
 70
     0
  9
$DIMSD2
 70
     0
  9
$DIMTOLJ
 70
     0
  9
$DIMTZIN
 70
     0
  9
$DIMALTZ
 70
     0
  9
$DIMALTTZ
 70
     0
  9
$DIMUPT
 70
     0
  9
$DIMDEC
 70
     2
  9
$DIMTDEC
 70
     2
  9
$DIMALTU
 70
     2
  9
$DIMALTTD
 70
     3
  9
$DIMTXSTY
  7
Standard
  9
$DIMAUNIT
 70
     0
  9
$DIMADEC
 70
     2
  9
$DIMALTRND
 40
0.0
  9
$DIMAZIN
 70
     0
  9
$DIMDSEP
 70
    44
  9
$DIMATFIT
 70
     3
  9
$DIMFRAC
 70
     0
  9
$DIMLDRBLK
  1

  9
$DIMLUNIT
 70
     2
  9
$DIMLWD
 70
    -2
  9
$DIMLWE
 70
    -2
  9
$DIMTMOVE
 70
     0
  9
$LUNITS
 70
     2
  9
$LUPREC
 70
     2
  9
$SKETCHINC
 40
1.0
  9
$FILLETRAD
 40
10.0
  9
$AUNITS
 70
     0
  9
$AUPREC
 70
     2
  9
$MENU
  1
.
  9
$ELEVATION
 40
0.0
  9
$PELEVATION
 40
0.0
  9
$THICKNESS
 40
0.0
  9
$LIMCHECK
 70
     0
  9
$CHAMFERA
 40
0.0
  9
$CHAMFERB
 40
0.0
  9
$CHAMFERC
 40
0.0
  9
$CHAMFERD
 40
0.0
  9
$SKPOLY
 70
     0
  9
$TDCREATE
 40
2459935.709321447
  9
$TDUCREATE
 40
2459935.584321447
  9
$TDUPDATE
 40
2459935.709321632
  9
$TDUUPDATE
 40
2459935.584321632
  9
$TDINDWG
 40
0.0000000116
  9
$TDUSRTIMER
 40
0.0000000116
  9
$USRTIMER
 70
     1
  9
$ANGBASE
 50
0.0
  9
$ANGDIR
 70
     0
  9
$PDMODE
 70
     0
  9
$PDSIZE
 40
-1.0
  9
$PLINEWID
 40
0.0
  9
$SPLFRAME
 70
     0
  9
$SPLINETYPE
 70
     6
  9
$SPLINESEGS
 70
     8
  9
$HANDSEED
  5
128
  9
$SURFTAB1
 70
     6
  9
$SURFTAB2
 70
     6
  9
$SURFTYPE
 70
     6
  9
$SURFU
 70
     6
  9
$SURFV
 70
     6
  9
$UCSBASE
  2

  9
$UCSNAME
  2

  9
$UCSORG
 10
0.0
 20
0.0
 30
0.0
  9
$UCSXDIR
 10
1.0
 20
0.0
 30
0.0
  9
$UCSYDIR
 10
0.0
 20
1.0
 30
0.0
  9
$UCSORTHOREF
  2

  9
$UCSORTHOVIEW
 70
     0
  9
$UCSORGTOP
 10
0.0
 20
0.0
 30
0.0
  9
$UCSORGBOTTOM
 10
0.0
 20
0.0
 30
0.0
  9
$UCSORGLEFT
 10
0.0
 20
0.0
 30
0.0
  9
$UCSORGRIGHT
 10
0.0
 20
0.0
 30
0.0
  9
$UCSORGFRONT
 10
0.0
 20
0.0
 30
0.0
  9
$UCSORGBACK
 10
0.0
 20
0.0
 30
0.0
  9
$PUCSBASE
  2

  9
$PUCSNAME
  2

  9
$PUCSORG
 10
0.0
 20
0.0
 30
0.0
  9
$PUCSXDIR
 10
1.0
 20
0.0
 30
0.0
  9
$PUCSYDIR
 10
0.0
 20
1.0
 30
0.0
  9
$PUCSORTHOREF
  2

  9
$PUCSORTHOVIEW
 70
     0
  9
$PUCSORGTOP
 10
0.0
 20
0.0
 30
0.0
  9
$PUCSORGBOTTOM
 10
0.0
 20
0.0
 30
0.0
  9
$PUCSORGLEFT
 10
0.0
 20
0.0
 30
0.0
  9
$PUCSORGRIGHT
 10
0.0
 20
0.0
 30
0.0
  9
$PUCSORGFRONT
 10
0.0
 20
0.0
 30
0.0
  9
$PUCSORGBACK
 10
0.0
 20
0.0
 30
0.0
  9
$USERI1
 70
     0
  9
$USERI2
 70
     0
  9
$USERI3
 70
     0
  9
$USERI4
 70
     0
  9
$USERI5
 70
     0
  9
$USERR1
 40
0.0
  9
$USERR2
 40
0.0
  9
$USERR3
 40
0.0
  9
$USERR4
 40
0.0
  9
$USERR5
 40
0.0
  9
$WORLDVIEW
 70
     1
  9
$SHADEDGE
 70
     3
  9
$SHADEDIF
 70
    70
  9
$TILEMODE
 70
     1
  9
$MAXACTVP
 70
    64
  9
$PINSBASE
 10
0.0
 20
0.0
 30
0.0
  9
$PLIMCHECK
 70
     0
  9
$PEXTMIN
 10
1.0000000000E+20
 20
1.0000000000E+20
 30
1.0000000000E+20
  9
$PEXTMAX
 10
-1.0000000000E+20
 20
-1.0000000000E+20
 30
-1.0000000000E+20
  9
$PLIMMIN
 10
0.0
 20
0.0
  9
$PLIMMAX
 10
420.0
 20
297.0
  9
$UNITMODE
 70
     0
  9
$VISRETAIN
 70
     1
  9
$PLINEGEN
 70
     0
  9
$PSLTSCALE
 70
     1
  9
$TREEDEPTH
 70
  3020
  9
$CMLSTYLE
  2
Standard
  9
$CMLJUST
 70
     0
  9
$CMLSCALE
 40
20.0
  9
$PROXYGRAPHICS
 70
     1
  9
$MEASUREMENT
 70
     1
  9
$CELWEIGHT
370
    -1
  9
$ENDCAPS
280
     0
  9
$JOINSTYLE
280
     0
  9
$LWDISPLAY
290
     1
  9
$INSUNITS
 70
     4
  9
$HYPERLINKBASE
  1

  9
$STYLESHEET
  1

  9
$XEDIT
290
     1
  9
$CEPSNTYPE
380
     0
  9
$PSTYLEMODE
290
     1
  9
$FINGERPRINTGUID
  2
{4c9c733e-4152-4c5f-99e4-8b6bdf1a6523}
  9
$VERSIONGUID
  2
{FAEB1C32-E019-11D5-929B-00C0DF256EC4}
  9
$EXTNAMES
290
     1
  9
$PSVPSCALE
 40
0.0
  9
$OLESTARTUP
290
     0
  0
ENDSEC
  0
SECTION
  2
CLASSES
  0
CLASS
  1
ACDBDICTIONARYWDFLT
  2
AcDbDictionaryWithDefault
  3
ObjectDBX Classes
 90
        0
280
     0
281
     0
  0
CLASS
  1
VISUALSTYLE
  2
AcDbVisualStyle
  3
ObjectDBX Classes
 90
     4095
280
     0
281
     0
  0
CLASS
  1
MATERIAL
  2
AcDbMaterial
  3
ObjectDBX Classes
 90
     1153
280
     0
281
     0
  0
CLASS
  1
SCALE
  2
AcDbScale
  3
ObjectDBX Classes
 90
     1153
280
     0
281
     0
  0
CLASS
  1
TABLESTYLE
  2
AcDbTableStyle
  3
ObjectDBX Classes
 90
     4095
280
     0
281
     0
  0
CLASS
  1
MLEADERSTYLE
  2
AcDbMLeaderStyle
  3
ACDB_MLEADERSTYLE_CLASS
 90
     4095
280
     0
281
     0
  0
CLASS
  1
SUN
  2
AcDbSun
  3
SCENEOE
 90
     1153
280
     0
281
     0
  0
CLASS
  1
ACDBPLACEHOLDER
  2
AcDbPlaceHolder
  3
ObjectDBX Classes
 90
        0
280
     0
281
     0
  0
CLASS
  1
LAYOUT
  2
AcDbLayout
  3
ObjectDBX Classes
 90
        0
280
     0
281
     0
  0
ENDSEC
  0
SECTION
  2
TABLES
  0
TABLE
  2
VPORT
  5
8
330
0
100
AcDbSymbolTable
 70
     1
  0
VPORT
  5
29
330
8
100
AcDbSymbolTableRecord
100
AcDbViewportTableRecord
  2
*Active
 70
     0
 10
0.0
 20
0.0
 11
1.0
 21
1.0
 12
139.7
 22
107.95
 13
0.0
 23
0.0
 14
10.0
 24
10.0
 15
10.0
 25
10.0
 16
0.0
 26
0.0
 36
1.0
 17
0.0
 27
0.0
 37
0.0
 40
215.9
 41
1.2941176471
 42
50.0
 43
0.0
 44
0.0
 50
0.0
 51
0.0
 71
     0
 72
  2000
 73
     1
 74
     3
 75
     0
 76
     0
 77
     0
 78
     0
281
     0
 65
     1
110
0.0
120
0.0
130
0.0
111
1.0
121
0.0
131
0.0
112
0.0
122
1.0
132
0.0
 79
     0
146
0.0
  0
ENDTAB
  0
TABLE
  2
LTYPE
  5
5
330
0
100
AcDbSymbolTable
 70
     6
  0
LTYPE
  5
14
330
5
100
AcDbSymbolTableRecord
100
AcDbLinetypeTableRecord
  2
ByBlock
 70
     0
  3

 72
    65
 73
     0
 40
0.0
  0
LTYPE
  5
15
330
5
100
AcDbSymbolTableRecord
100
AcDbLinetypeTableRecord
  2
ByLayer
 70
     0
  3

 72
    65
 73
     0
 40
0.0
  0
LTYPE
  5
16
330
5
100
AcDbSymbolTableRecord
100
AcDbLinetypeTableRecord
  2
Continuous
 70
     0
  3
Solid line
 72
    65
 73
     0
 40
0.0
  0
LTYPE
  5
6E
330
5
100
AcDbSymbolTableRecord
100
AcDbLinetypeTableRecord
  2
HIDDEN
 70
     0
  3
Hidden __ __ __ __ __ __ __ __ __ __ __ __ __ __
 72
    65
 73
     2
 40
1.905
 49
1.27
 74
     0
 49
-0.635
 74
     0
  0
LTYPE
  5
6F
330
5
100
AcDbSymbolTableRecord
100
AcDbLinetypeTableRecord
  2
PHANTOM
 70
     0
  3
Phantom ______  __  __  ______  __  __  ______
 72
    65
 73
     6
 40
12.7
 49
6.35
 74
     0
 49
-1.27
 74
     0
 49
1.27
 74
     0
 49
-1.27
 74
     0
 49
1.27
 74
     0
 49
-1.27
 74
     0
  0
LTYPE
  5
70
330
5
100
AcDbSymbolTableRecord
100
AcDbLinetypeTableRecord
  2
CENTER
 70
     0
  3
Center ____ _ ____ _ ____ _ ____ _ ____ _ ____
 72
    65
 73
     4
 40
10.16
 49
6.35
 74
     0
 49
-1.27
 74
     0
 49
1.27
 74
     0
 49
-1.27
 74
     0
  0
LTYPE
  5
71
330
5
100
AcDbSymbolTableRecord
100
AcDbLinetypeTableRecord
  2
CENTERX2
 70
     0
  3
Center (2x) ________  __  ________  __  _____
 72
    65
 73
     4
 40
20.32
 49
12.7
 74
     0
 49
-2.54
 74
     0
 49
2.54
 74
     0
 49
-2.54
 74
     0
  0
LTYPE
  5
72
330
5
100
AcDbSymbolTableRecord
100
AcDbLinetypeTableRecord
  2
DOT2
 70
     0
  3
Dot (.5x) ........................................
 72
    65
 73
     2
 40
0.635
 49
0.0
 74
     0
 49
-0.635
 74
     0
  0
ENDTAB
  0
TABLE
  2
LAYER
  5
2
330
0
100
AcDbSymbolTable
 70
    17
  0
LAYER
  5
10
330
2
100
AcDbSymbolTableRecord
100
AcDbLayerTableRecord
  2
0
 70
     0
 62
     7
  6
Continuous
370
    -3
390
F
  0
LAYER
  5
73
330
2
100
AcDbSymbolTableRecord
100
AcDbLayerTableRecord
  2
FORMAT
 70
     0
 62
     7
  6
Continuous
370
    -3
390
F
  0
LAYER
  5
74
330
2
100
AcDbSymbolTableRecord
100
AcDbLayerTableRecord
  2
YARDIMCI_GEOMETRI
 70
     0
 62
    -6
  6
Continuous
290
     0
370
    -3
390
F
  0
LAYER
  5
75
330
2
100
AcDbSymbolTableRecord
100
AcDbLayerTableRecord
  2
SAYFA_CERCEVESI
 70
     0
 62
     7
  6
Continuous
370
    25
390
F
  0
LAYER
  5
76
330
2
100
AcDbSymbolTableRecord
100
AcDbLayerTableRecord
  2
ANTET
 70
     0
 62
     7
  6
Continuous
370
    -3
390
F
  0
LAYER
  5
77
330
2
100
AcDbSymbolTableRecord
100
AcDbLayerTableRecord
  2
OLCU
 70
     0
 62
   150
  6
Continuous
370
    -3
390
F
  0
LAYER
  5
78
330
2
100
AcDbSymbolTableRecord
100
AcDbLayerTableRecord
  2
METIN
 70
     0
 62
    96
  6
Continuous
370
    -3
390
F
  0
LAYER
  5
79
330
2
100
AcDbSymbolTableRecord
100
AcDbLayerTableRecord
  2
BALON
 70
     0
 62
     5
  6
Continuous
370
    -3
390
F
  0
LAYER
  5
7A
330
2
100
AcDbSymbolTableRecord
100
AcDbLayerTableRecord
  2
VURGU
 70
     0
 62
     7
  6
Continuous
370
    -3
390
F
  0
LAYER
  5
7B
330
2
100
AcDbSymbolTableRecord
100
AcDbLayerTableRecord
  2
SILIK
 70
     0
 62
     7
  6
Continuous
370
    -3
390
F
  0
LAYER
  5
7C
330
2
100
AcDbSymbolTableRecord
100
AcDbLayerTableRecord
  2
MODEL
 70
     0
 62
     7
  6
Continuous
370
    -3
390
F
  0
LAYER
  5
7D
330
2
100
AcDbSymbolTableRecord
100
AcDbLayerTableRecord
  2
DETAYLANDıRMA
 70
     0
 62
   190
  6
Continuous
370
    -3
390
F
  0
LAYER
  5
7E
330
2
100
AcDbSymbolTableRecord
100
AcDbLayerTableRecord
  2
TOLERANS
 70
     0
 62
   230
  6
Continuous
370
    -3
390
F
  0
LAYER
  5
7F
330
2
100
AcDbSymbolTableRecord
100
AcDbLayerTableRecord
  2
MERKEZ_CIZGILERI
 70
     0
 62
    30
  6
Continuous
370
    -3
390
F
  0
LAYER
  5
80
330
2
100
AcDbSymbolTableRecord
100
AcDbLayerTableRecord
  2
KESIT-DETAY_CIZGILERI
 70
     0
 62
     7
  6
Continuous
370
    -3
390
F
  0
LAYER
  5
81
330
2
100
AcDbSymbolTableRecord
100
AcDbLayerTableRecord
  2
\U+041E\U+0421\U+0415\U+0412\U+042B\U+0415
 70
     0
 62
     7
  6
Continuous
370
    -3
390
F
  0
LAYER
  5
82
330
2
100
AcDbSymbolTableRecord
100
AcDbLayerTableRecord
  2
\U+0412\U+041E\U+0414\U+042F\U+041D\U+042B\U+0415_\U+0417\U+041D\U+0410\U+041A\U+0418
 70
     0
 62
    11
  6
Continuous
370
    -3
390
F
  0
ENDTAB
  0
TABLE
  2
STYLE
  5
3
330
0
100
AcDbSymbolTable
 70
     1
  0
STYLE
  5
11
330
3
100
AcDbSymbolTableRecord
100
AcDbTextStyleTableRecord
  2
Standard
 70
     0
 40
0.0
 41
1.0
 50
0.0
 71
     0
 42
3.5
  3
txt
  4

  0
ENDTAB
  0
TABLE
  2
VIEW
  5
6
330
0
100
AcDbSymbolTable
 70
     0
  0
ENDTAB
  0
TABLE
  2
UCS
  5
7
330
0
100
AcDbSymbolTable
 70
     0
  0
ENDTAB
  0
TABLE
  2
APPID
  5
9
330
0
100
AcDbSymbolTable
 70
     1
  0
APPID
  5
12
330
9
100
AcDbSymbolTableRecord
100
AcDbRegAppTableRecord
  2
ACAD
 70
     0
  0
ENDTAB
  0
TABLE
  2
DIMSTYLE
  5
A
330
0
100
AcDbSymbolTable
 70
     1
100
AcDbDimStyleTable
  0
DIMSTYLE
105
27
330
A
100
AcDbSymbolTableRecord
100
AcDbDimStyleTableRecord
  2
ISO-25
 70
     0
 41
2.5
 42
0.625
 43
3.75
 44
1.25
 73
     0
 74
     0
 77
     1
 78
     8
140
2.5
141
2.5
143
0.0393700787
147
0.625
171
     3
172
     1
178
     0
271
     2
272
     2
274
     3
278
    44
283
     0
284
     8
340
11
  0
ENDTAB
  0
TABLE
  2
BLOCK_RECORD
  5
1
330
0
100
AcDbSymbolTable
 70
     2
  0
BLOCK_RECORD
  5
1F
330
1
100
AcDbSymbolTableRecord
100
AcDbBlockTableRecord
  2
*Model_Space
340
22
  0
BLOCK_RECORD
  5
1B
330
1
100
AcDbSymbolTableRecord
100
AcDbBlockTableRecord
  2
*Paper_Space
340
1E
  0
BLOCK_RECORD
  5
23
330
1
100
AcDbSymbolTableRecord
100
AcDbBlockTableRecord
  2
*Paper_Space0
340
26
  0
BLOCK_RECORD
  5
93
330
1
100
AcDbSymbolTableRecord
100
AcDbBlockTableRecord
  2
SW_CENTERMARKSYMBOL_0
340
0
102
{BLKREFS
331
9E
102
}
  0
ENDTAB
  0
ENDSEC
  0
SECTION
  2
BLOCKS
  0
BLOCK
  5
20
330
1F
100
AcDbEntity
  8
0
100
AcDbBlockBegin
  2
*Model_Space
 70
     0
 10
0.0
 20
0.0
 30
0.0
  3
*Model_Space
  1

  0
ENDBLK
  5
21
330
1F
100
AcDbEntity
  8
0
100
AcDbBlockEnd
  0
BLOCK
  5
1C
330
1B
100
AcDbEntity
 67
     1
  8
0
100
AcDbBlockBegin
  2
*Paper_Space
 70
     0
 10
0.0
 20
0.0
 30
0.0
  3
*Paper_Space
  1

  0
ENDBLK
  5
1D
330
1B
100
AcDbEntity
 67
     1
  8
0
100
AcDbBlockEnd
  0
BLOCK
  5
24
330
23
100
AcDbEntity
  8
0
100
AcDbBlockBegin
  2
*Paper_Space0
 70
     0
 10
0.0
 20
0.0
 30
0.0
  3
*Paper_Space0
  1

  0
ENDBLK
  5
25
330
23
100
AcDbEntity
  8
0
100
AcDbBlockEnd
  0
BLOCK
  5
94
330
93
100
AcDbEntity
  8
0
100
AcDbBlockBegin
  2
SW_CENTERMARKSYMBOL_0
 70
     0
 10
0.0
 20
0.0
 30
0.0
  3
SW_CENTERMARKSYMBOL_0
  1

  0
LINE
  5
96
330
93
100
AcDbEntity
  8
FORMAT
 62
     0
100
AcDbLine
 10
0.0
 20
0.0
 30
0.0
 11
0.0
 21
2.5
 31
0.0
  0
LINE
  5
97
330
93
100
AcDbEntity
  8
FORMAT
 62
     0
100
AcDbLine
 10
0.0
 20
0.0
 30
0.0
 11
-2.5
 21
0.0
 31
0.0
  0
LINE
  5
98
330
93
100
AcDbEntity
  8
FORMAT
 62
     0
100
AcDbLine
 10
0.0
 20
0.0
 30
0.0
 11
0.0
 21
-2.5
 31
0.0
  0
LINE
  5
99
330
93
100
AcDbEntity
  8
FORMAT
 62
     0
100
AcDbLine
 10
0.0
 20
0.0
 30
0.0
 11
2.5
 21
0.0
 31
0.0
  0
LINE
  5
9A
330
93
100
AcDbEntity
  8
FORMAT
 62
     0
100
AcDbLine
 10
0.0
 20
5.0
 30
0.0
 11
0.0
 21
34.0
 31
0.0
  0
LINE
  5
9B
330
93
100
AcDbEntity
  8
FORMAT
 62
     0
100
AcDbLine
 10
-5.0
 20
0.0
 30
0.0
 11
-34.0
 21
0.0
 31
0.0
  0
LINE
  5
9C
330
93
100
AcDbEntity
  8
FORMAT
 62
     0
100
AcDbLine
 10
0.0
 20
-5.0
 30
0.0
 11
0.0
 21
-34.0
 31
0.0
  0
LINE
  5
9D
330
93
100
AcDbEntity
  8
FORMAT
 62
     0
100
AcDbLine
 10
5.0
 20
0.0
 30
0.0
 11
34.0
 21
0.0
 31
0.0
  0
ENDBLK
  5
95
330
93
100
AcDbEntity
  8
0
100
AcDbBlockEnd
  0
ENDSEC
  0
SECTION
  2
ENTITIES
  0
CIRCLE
  5
83
330
1F
100
AcDbEntity
  8
0
  6
Continuous
 62
     7
370
    25
100
AcDbCircle
 10
139.8323425481
 20
108.7440552885
 30
0.0
 40
31.50000000000001
  0
CIRCLE
  5
84
330
1F
100
AcDbEntity
  8
0
  6
Continuous
 62
     7
370
    25
100
AcDbCircle
 10
139.8323425481
 20
108.7440552885
 30
0.0
 40
25.7
  0
CIRCLE
  5
85
330
1F
100
AcDbEntity
  8
0
  6
Continuous
 62
     7
370
    25
100
AcDbCircle
 10
139.8323425481
 20
108.7440552885
 30
0.0
 40
24.7
  0
ARC
  5
86
330
1F
100
AcDbEntity
  8
0
  6
Continuous
 62
     7
370
    25
100
AcDbCircle
 10
139.8323425481
 20
108.7440552885
 30
0.0
 40
45.0
100
AcDbArc
 50
267.2660444507
 51
272.7339555493
  0
LINE
  5
87
330
1F
100
AcDbEntity
  8
0
  6
Continuous
 62
     7
370
    25
100
AcDbLine
 10
137.6859136194
 20
63.795275073
 30
0.0
 11
101.9787714767
 21
84.4108032011
 31
0.0
  0
ARC
  5
88
330
1F
100
AcDbEntity
  8
0
  6
Continuous
 62
     7
370
    25
100
AcDbCircle
 10
139.8323425481
 20
108.7440552885
 30
0.0
 40
45.00000000000001
100
AcDbArc
 50
207.2660444507
 51
212.7339555493
  0
LINE
  5
89
330
1F
100
AcDbEntity
  8
0
  6
Continuous
 62
     7
370
    25
100
AcDbLine
 10
99.8323425481
 20
88.1285271604
 30
0.0
 11
99.8323425481
 21
129.3595834165
 31
0.0
  0
ARC
  5
8A
330
1F
100
AcDbEntity
  8
0
  6
Continuous
 62
     7
370
    25
100
AcDbCircle
 10
139.8323425481
 20
108.7440552885
 30
0.0
 40
45.00000000000001
100
AcDbArc
 50
147.2660444507
 51
152.7339555493
  0
LINE
  5
8B
330
1F
100
AcDbEntity
  8
0
  6
Continuous
 62
     7
370
    25
100
AcDbLine
 10
101.9787714767
 20
133.0773073758
 30
0.0
 11
137.6859136194
 21
153.6928355039
 31
0.0
  0
ARC
  5
8C
330
1F
100
AcDbEntity
  8
0
  6
Continuous
 62
     7
370
    25
100
AcDbCircle
 10
139.8323425481
 20
108.7440552885
 30
0.0
 40
44.99999999999999
100
AcDbArc
 50
87.2660444507
 51
92.7339555493
  0
LINE
  5
8D
330
1F
100
AcDbEntity
  8
0
  6
Continuous
 62
     7
370
    25
100
AcDbLine
 10
141.9787714767
 20
153.6928355039
 30
0.0
 11
177.6859136194
 21
133.0773073758
 31
0.0
  0
ARC
  5
8E
330
1F
100
AcDbEntity
  8
0
  6
Continuous
 62
     7
370
    25
100
AcDbCircle
 10
139.8323425481
 20
108.7440552885
 30
0.0
 40
44.99999999999999
100
AcDbArc
 50
27.2660444507
 51
32.7339555493
  0
LINE
  5
8F
330
1F
100
AcDbEntity
  8
0
  6
Continuous
 62
     7
370
    25
100
AcDbLine
 10
179.8323425481
 20
129.3595834165
 30
0.0
 11
179.8323425481
 21
88.1285271604
 31
0.0
  0
ARC
  5
90
330
1F
100
AcDbEntity
  8
0
  6
Continuous
 62
     7
370
    25
100
AcDbCircle
 10
139.8323425481
 20
108.7440552885
 30
0.0
 40
45.0
100
AcDbArc
 50
327.2660444507
 51
332.7339555493
  0
LINE
  5
91
330
1F
100
AcDbEntity
  8
0
  6
Continuous
 62
     7
370
    25
100
AcDbLine
 10
177.6859136194
 20
84.4108032011
 30
0.0
 11
141.9787714767
 21
63.795275073
 31
0.0
  0
CIRCLE
  5
92
330
1F
100
AcDbEntity
  8
0
  6
Continuous
 62
     7
370
    25
100
AcDbCircle
 10
139.8323425481
 20
108.7440552885
 30
0.0
 40
22.42500000000001
  0
INSERT
  5
9E
330
1F
100
AcDbEntity
  8
FORMAT
 62
     7
100
AcDbBlockReference
  2
SW_CENTERMARKSYMBOL_0
 10
139.8323425481
 20
108.7440552885
 30
0.0
  0
LINE
  5
9F
330
1F
100
AcDbEntity
  8
0
  6
Continuous
 62
     7
370
    25
100
AcDbLine
 10
171.5823425481
 20
192.4050418101
 30
0.0
 11
171.5823425481
 21
210.4050418101
 31
0.0
  0
LINE
  5
A0
330
1F
100
AcDbEntity
  8
0
  6
Continuous
 62
     7
370
    25
100
AcDbLine
 10
108.0823425481
 20
210.4050418101
 30
0.0
 11
108.0823425481
 21
192.4050418101
 31
0.0
  0
LINE
  5
A1
330
1F
100
AcDbEntity
  8
0
  6
Continuous
 62
     7
370
    25
100
AcDbLine
 10
171.3323425481
 20
228.9050418101
 30
0.0
 11
171.3323425481
 21
278.4050418101
 31
0.0
  0
LINE
  5
A2
330
1F
100
AcDbEntity
  8
0
  6
Continuous
 62
     7
370
    25
100
AcDbLine
 10
108.3323425481
 20
278.4050418101
 30
0.0
 11
108.3323425481
 21
228.9050418101
 31
0.0
  0
LINE
  5
A3
330
1F
100
AcDbEntity
  8
0
  6
Continuous
 62
     7
370
    25
100
AcDbLine
 10
171.5823425481
 20
192.4050418101
 30
0.0
 11
108.0823425481
 21
192.4050418101
 31
0.0
  0
LINE
  5
A4
330
1F
100
AcDbEntity
  8
0
  6
Continuous
 62
     7
370
    25
100
AcDbLine
 10
137.6859136194
 20
210.4050418101
 30
0.0
 11
137.6859136194
 21
228.9050418101
 31
0.0
  0
LINE
  5
A5
330
1F
100
AcDbEntity
  8
0
  6
Continuous
 62
     7
370
    25
100
AcDbLine
 10
141.9787714767
 20
228.9050418101
 30
0.0
 11
137.6859136194
 21
228.9050418101
 31
0.0
  0
LINE
  5
A6
330
1F
100
AcDbEntity
  8
0
  6
Continuous
 62
     7
370
    25
100
AcDbLine
 10
141.9787714767
 20
228.9050418101
 30
0.0
 11
141.9787714767
 21
210.4050418101
 31
0.0
  0
LINE
  5
A7
330
1F
100
AcDbEntity
  8
0
  6
Continuous
 62
     7
370
    25
100
AcDbLine
 10
141.9787714767
 20
210.4050418101
 30
0.0
 11
137.6859136194
 21
210.4050418101
 31
0.0
  0
LINE
  5
A8
330
1F
100
AcDbEntity
  8
0
  6
Continuous
 62
     7
370
    25
100
AcDbLine
 10
177.6859136194
 20
210.4050418101
 30
0.0
 11
177.6859136194
 21
228.9050418101
 31
0.0
  0
LINE
  5
A9
330
1F
100
AcDbEntity
  8
0
  6
Continuous
 62
     7
370
    25
100
AcDbLine
 10
177.6859136194
 20
228.9050418101
 30
0.0
 11
141.9787714767
 21
228.9050418101
 31
0.0
  0
LINE
  5
AA
330
1F
100
AcDbEntity
  8
0
  6
Continuous
 62
     7
370
    25
100
AcDbLine
 10
141.9787714767
 20
210.4050418101
 30
0.0
 11
177.6859136194
 21
210.4050418101
 31
0.0
  0
LINE
  5
AB
330
1F
100
AcDbEntity
  8
0
  6
Continuous
 62
     7
370
    25
100
AcDbLine
 10
101.9787714767
 20
228.9050418101
 30
0.0
 11
101.9787714767
 21
210.4050418101
 31
0.0
  0
LINE
  5
AC
330
1F
100
AcDbEntity
  8
0
  6
Continuous
 62
     7
370
    25
100
AcDbLine
 10
137.6859136194
 20
228.9050418101
 30
0.0
 11
101.9787714767
 21
228.9050418101
 31
0.0
  0
LINE
  5
AD
330
1F
100
AcDbEntity
  8
0
  6
Continuous
 62
     7
370
    25
100
AcDbLine
 10
101.9787714767
 20
210.4050418101
 30
0.0
 11
137.6859136194
 21
210.4050418101
 31
0.0
  0
LINE
  5
AE
330
1F
100
AcDbEntity
  8
0
  6
Continuous
 62
     7
370
    25
100
AcDbLine
 10
171.3323425481
 20
278.4050418101
 30
0.0
 11
108.3323425481
 21
278.4050418101
 31
0.0
  0
LINE
  5
AF
330
1F
100
AcDbEntity
  8
0
  6
Continuous
 62
     7
370
    25
100
AcDbLine
 10
99.8323425481
 20
210.4050418101
 30
0.0
 11
99.8323425481
 21
228.9050418101
 31
0.0
  0
LINE
  5
B0
330
1F
100
AcDbEntity
  8
0
  6
Continuous
 62
     7
370
    25
100
AcDbLine
 10
101.9787714767
 20
228.9050418101
 30
0.0
 11
99.8323425481
 21
228.9050418101
 31
0.0
  0
LINE
  5
B1
330
1F
100
AcDbEntity
  8
0
  6
Continuous
 62
     7
370
    25
100
AcDbLine
 10
101.9787714767
 20
210.4050418101
 30
0.0
 11
99.8323425481
 21
210.4050418101
 31
0.0
  0
LINE
  5
B2
330
1F
100
AcDbEntity
  8
0
  6
Continuous
 62
     7
370
    25
100
AcDbLine
 10
179.8323425481
 20
228.9050418101
 30
0.0
 11
179.8323425481
 21
210.4050418101
 31
0.0
  0
LINE
  5
B3
330
1F
100
AcDbEntity
  8
0
  6
Continuous
 62
     7
370
    25
100
AcDbLine
 10
179.8323425481
 20
228.9050418101
 30
0.0
 11
177.6859136194
 21
228.9050418101
 31
0.0
  0
LINE
  5
B4
330
1F
100
AcDbEntity
  8
0
  6
Continuous
 62
     7
370
    25
100
AcDbLine
 10
179.8323425481
 20
210.4050418101
 30
0.0
 11
177.6859136194
 21
210.4050418101
 31
0.0
  0
LINE
  5
B5
330
1F
100
AcDbEntity
  8
0
  6
Continuous
 62
     7
370
    25
100
AcDbLine
 10
232.5941895363
 20
76.9940552885
 30
0.0
 11
250.5941895363
 21
76.9940552885
 31
0.0
  0
LINE
  5
B6
330
1F
100
AcDbEntity
  8
0
  6
Continuous
 62
     7
370
    25
100
AcDbLine
 10
250.5941895363
 20
140.4940552885
 30
0.0
 11
232.5941895363
 21
140.4940552885
 31
0.0
  0
LINE
  5
B7
330
1F
100
AcDbEntity
  8
0
  6
Continuous
 62
     7
370
    25
100
AcDbLine
 10
269.0941895363
 20
77.2440552885
 30
0.0
 11
318.5941895363
 21
77.2440552885
 31
0.0
  0
LINE
  5
B8
330
1F
100
AcDbEntity
  8
0
  6
Continuous
 62
     7
370
    25
100
AcDbLine
 10
318.5941895363
 20
140.2440552885
 30
0.0
 11
269.0941895363
 21
140.2440552885
 31
0.0
  0
LINE
  5
B9
330
1F
100
AcDbEntity
  8
0
  6
Continuous
 62
     7
370
    25
100
AcDbLine
 10
250.5941895363
 20
63.7440552885
 30
0.0
 11
269.0941895363
 21
63.7440552885
 31
0.0
  0
LINE
  5
BA
330
1F
100
AcDbEntity
  8
0
  6
Continuous
 62
     7
370
    25
100
AcDbLine
 10
269.0941895363
 20
153.7440552885
 30
0.0
 11
250.5941895363
 21
153.7440552885
 31
0.0
  0
LINE
  5
BB
330
1F
100
AcDbEntity
  8
0
  6
Continuous
 62
     7
370
    25
100
AcDbLine
 10
232.5941895363
 20
108.7440552885
 30
0.0
 11
232.5941895363
 21
140.4940552885
 31
0.0
  0
LINE
  5
BC
330
1F
100
AcDbEntity
  8
0
  6
Continuous
 62
     7
370
    25
100
AcDbLine
 10
232.5941895363
 20
76.9940552885
 30
0.0
 11
232.5941895363
 21
108.7440552885
 31
0.0
  0
LINE
  5
BD
330
1F
100
AcDbEntity
  8
0
  6
Continuous
 62
     7
370
    25
100
AcDbLine
 10
269.0941895363
 20
84.4108032011
 30
0.0
 11
269.0941895363
 21
88.1285271604
 31
0.0
  0
LINE
  5
BE
330
1F
100
AcDbEntity
  8
0
  6
Continuous
 62
     7
370
    25
100
AcDbLine
 10
269.0941895363
 20
84.4108032011
 30
0.0
 11
250.5941895363
 21
84.4108032011
 31
0.0
  0
LINE
  5
BF
330
1F
100
AcDbEntity
  8
0
  6
Continuous
 62
     7
370
    25
100
AcDbLine
 10
250.5941895363
 20
88.1285271604
 30
0.0
 11
269.0941895363
 21
88.1285271604
 31
0.0
  0
LINE
  5
C0
330
1F
100
AcDbEntity
  8
0
  6
Continuous
 62
     7
370
    25
100
AcDbLine
 10
250.5941895363
 20
84.4108032011
 30
0.0
 11
250.5941895363
 21
88.1285271604
 31
0.0
  0
LINE
  5
C1
330
1F
100
AcDbEntity
  8
0
  6
Continuous
 62
     7
370
    25
100
AcDbLine
 10
269.0941895363
 20
129.3595834165
 30
0.0
 11
250.5941895363
 21
129.3595834165
 31
0.0
  0
LINE
  5
C2
330
1F
100
AcDbEntity
  8
0
  6
Continuous
 62
     7
370
    25
100
AcDbLine
 10
269.0941895363
 20
88.1285271604
 30
0.0
 11
269.0941895363
 21
129.3595834165
 31
0.0
  0
LINE
  5
C3
330
1F
100
AcDbEntity
  8
0
  6
Continuous
 62
     7
370
    25
100
AcDbLine
 10
250.5941895363
 20
129.3595834165
 30
0.0
 11
250.5941895363
 21
88.1285271604
 31
0.0
  0
LINE
  5
C4
330
1F
100
AcDbEntity
  8
0
  6
Continuous
 62
     7
370
    25
100
AcDbLine
 10
269.0941895363
 20
129.3595834165
 30
0.0
 11
269.0941895363
 21
133.0773073758
 31
0.0
  0
LINE
  5
C5
330
1F
100
AcDbEntity
  8
0
  6
Continuous
 62
     7
370
    25
100
AcDbLine
 10
250.5941895363
 20
133.0773073758
 30
0.0
 11
269.0941895363
 21
133.0773073758
 31
0.0
  0
LINE
  5
C6
330
1F
100
AcDbEntity
  8
0
  6
Continuous
 62
     7
370
    25
100
AcDbLine
 10
250.5941895363
 20
129.3595834165
 30
0.0
 11
250.5941895363
 21
133.0773073758
 31
0.0
  0
LINE
  5
C7
330
1F
100
AcDbEntity
  8
0
  6
Continuous
 62
     7
370
    25
100
AcDbLine
 10
269.0941895363
 20
153.6928355039
 30
0.0
 11
250.5941895363
 21
153.6928355039
 31
0.0
  0
LINE
  5
C8
330
1F
100
AcDbEntity
  8
0
  6
Continuous
 62
     7
370
    25
100
AcDbLine
 10
269.0941895363
 20
133.0773073758
 30
0.0
 11
269.0941895363
 21
153.6928355039
 31
0.0
  0
LINE
  5
C9
330
1F
100
AcDbEntity
  8
0
  6
Continuous
 62
     7
370
    25
100
AcDbLine
 10
250.5941895363
 20
153.6928355039
 30
0.0
 11
250.5941895363
 21
133.0773073758
 31
0.0
  0
LINE
  5
CA
330
1F
100
AcDbEntity
  8
0
  6
Continuous
 62
     7
370
    25
100
AcDbLine
 10
250.5941895363
 20
63.795275073
 30
0.0
 11
269.0941895363
 21
63.795275073
 31
0.0
  0
LINE
  5
CB
330
1F
100
AcDbEntity
  8
0
  6
Continuous
 62
     7
370
    25
100
AcDbLine
 10
269.0941895363
 20
63.795275073
 30
0.0
 11
269.0941895363
 21
84.4108032011
 31
0.0
  0
LINE
  5
CC
330
1F
100
AcDbEntity
  8
0
  6
Continuous
 62
     7
370
    25
100
AcDbLine
 10
250.5941895363
 20
84.4108032011
 30
0.0
 11
250.5941895363
 21
63.795275073
 31
0.0
  0
LINE
  5
CD
330
1F
100
AcDbEntity
  8
0
  6
Continuous
 62
     7
370
    25
100
AcDbLine
 10
318.5941895363
 20
108.7440552885
 30
0.0
 11
318.5941895363
 21
140.2440552885
 31
0.0
  0
LINE
  5
CE
330
1F
100
AcDbEntity
  8
0
  6
Continuous
 62
     7
370
    25
100
AcDbLine
 10
318.5941895363
 20
77.2440552885
 30
0.0
 11
318.5941895363
 21
108.7440552885
 31
0.0
  0
LINE
  5
CF
330
1F
100
AcDbEntity
  8
0
  6
Continuous
 62
     7
370
    25
100
AcDbLine
 10
269.0941895363
 20
63.7440552885
 30
0.0
 11
269.0941895363
 21
63.795275073
 31
0.0
  0
LINE
  5
D0
330
1F
100
AcDbEntity
  8
0
  6
Continuous
 62
     7
370
    25
100
AcDbLine
 10
250.5941895363
 20
63.7440552885
 30
0.0
 11
250.5941895363
 21
63.795275073
 31
0.0
  0
LINE
  5
D1
330
1F
100
AcDbEntity
  8
0
  6
Continuous
 62
     7
370
    25
100
AcDbLine
 10
269.0941895363
 20
153.6928355039
 30
0.0
 11
269.0941895363
 21
153.7440552885
 31
0.0
  0
LINE
  5
D2
330
1F
100
AcDbEntity
  8
0
  6
Continuous
 62
     7
370
    25
100
AcDbLine
 10
250.5941895363
 20
153.6928355039
 30
0.0
 11
250.5941895363
 21
153.7440552885
 31
0.0
  0
LINE
  5
D3
330
1F
100
AcDbEntity
  8
0
  6
Continuous
 62
     7
370
    25
100
AcDbLine
 10
56.6700706673
 20
140.4940552885
 30
0.0
 11
38.6700706673
 21
140.4940552885
 31
0.0
  0
LINE
  5
D4
330
1F
100
AcDbEntity
  8
0
  6
Continuous
 62
     7
370
    25
100
AcDbLine
 10
38.6700706673
 20
76.9940552885
 30
0.0
 11
56.6700706673
 21
76.9940552885
 31
0.0
  0
LINE
  5
D5
330
1F
100
AcDbEntity
  8
0
  6
Continuous
 62
     7
370
    25
100
AcDbLine
 10
20.1700706673
 20
140.2440552885
 30
0.0
 11
-29.3299293327
 21
140.2440552885
 31
0.0
  0
LINE
  5
D6
330
1F
100
AcDbEntity
  8
0
  6
Continuous
 62
     7
370
    25
100
AcDbLine
 10
-29.3299293327
 20
77.2440552885
 30
0.0
 11
20.1700706673
 21
77.2440552885
 31
0.0
  0
LINE
  5
D7
330
1F
100
AcDbEntity
  8
0
  6
Continuous
 62
     7
370
    25
100
AcDbLine
 10
38.6700706673
 20
153.7440552885
 30
0.0
 11
20.1700706673
 21
153.7440552885
 31
0.0
  0
LINE
  5
D8
330
1F
100
AcDbEntity
  8
0
  6
Continuous
 62
     7
370
    25
100
AcDbLine
 10
20.1700706673
 20
63.7440552885
 30
0.0
 11
38.6700706673
 21
63.7440552885
 31
0.0
  0
LINE
  5
D9
330
1F
100
AcDbEntity
  8
0
  6
Continuous
 62
     7
370
    25
100
AcDbLine
 10
56.6700706673
 20
140.4940552885
 30
0.0
 11
56.6700706673
 21
76.9940552885
 31
0.0
  0
LINE
  5
DA
330
1F
100
AcDbEntity
  8
0
  6
Continuous
 62
     7
370
    25
100
AcDbLine
 10
20.1700706673
 20
133.0773073758
 30
0.0
 11
20.1700706673
 21
129.3595834165
 31
0.0
  0
LINE
  5
DB
330
1F
100
AcDbEntity
  8
0
  6
Continuous
 62
     7
370
    25
100
AcDbLine
 10
20.1700706673
 20
133.0773073758
 30
0.0
 11
38.6700706673
 21
133.0773073758
 31
0.0
  0
LINE
  5
DC
330
1F
100
AcDbEntity
  8
0
  6
Continuous
 62
     7
370
    25
100
AcDbLine
 10
38.6700706673
 20
129.3595834165
 30
0.0
 11
20.1700706673
 21
129.3595834165
 31
0.0
  0
LINE
  5
DD
330
1F
100
AcDbEntity
  8
0
  6
Continuous
 62
     7
370
    25
100
AcDbLine
 10
38.6700706673
 20
133.0773073758
 30
0.0
 11
38.6700706673
 21
129.3595834165
 31
0.0
  0
LINE
  5
DE
330
1F
100
AcDbEntity
  8
0
  6
Continuous
 62
     7
370
    25
100
AcDbLine
 10
20.1700706673
 20
88.1285271604
 30
0.0
 11
20.1700706673
 21
84.4108032011
 31
0.0
  0
LINE
  5
DF
330
1F
100
AcDbEntity
  8
0
  6
Continuous
 62
     7
370
    25
100
AcDbLine
 10
20.1700706673
 20
88.1285271604
 30
0.0
 11
38.6700706673
 21
88.1285271604
 31
0.0
  0
LINE
  5
E0
330
1F
100
AcDbEntity
  8
0
  6
Continuous
 62
     7
370
    25
100
AcDbLine
 10
38.6700706673
 20
84.4108032011
 30
0.0
 11
20.1700706673
 21
84.4108032011
 31
0.0
  0
LINE
  5
E1
330
1F
100
AcDbEntity
  8
0
  6
Continuous
 62
     7
370
    25
100
AcDbLine
 10
38.6700706673
 20
88.1285271604
 30
0.0
 11
38.6700706673
 21
84.4108032011
 31
0.0
  0
LINE
  5
E2
330
1F
100
AcDbEntity
  8
0
  6
Continuous
 62
     7
370
    25
100
AcDbLine
 10
20.1700706673
 20
129.3595834165
 30
0.0
 11
20.1700706673
 21
88.1285271604
 31
0.0
  0
LINE
  5
E3
330
1F
100
AcDbEntity
  8
0
  6
Continuous
 62
     7
370
    25
100
AcDbLine
 10
38.6700706673
 20
88.1285271604
 30
0.0
 11
38.6700706673
 21
129.3595834165
 31
0.0
  0
LINE
  5
E4
330
1F
100
AcDbEntity
  8
0
  6
Continuous
 62
     7
370
    25
100
AcDbLine
 10
20.1700706673
 20
63.795275073
 30
0.0
 11
38.6700706673
 21
63.795275073
 31
0.0
  0
LINE
  5
E5
330
1F
100
AcDbEntity
  8
0
  6
Continuous
 62
     7
370
    25
100
AcDbLine
 10
20.1700706673
 20
84.4108032011
 30
0.0
 11
20.1700706673
 21
63.795275073
 31
0.0
  0
LINE
  5
E6
330
1F
100
AcDbEntity
  8
0
  6
Continuous
 62
     7
370
    25
100
AcDbLine
 10
38.6700706673
 20
63.795275073
 30
0.0
 11
38.6700706673
 21
84.4108032011
 31
0.0
  0
LINE
  5
E7
330
1F
100
AcDbEntity
  8
0
  6
Continuous
 62
     7
370
    25
100
AcDbLine
 10
38.6700706673
 20
153.6928355039
 30
0.0
 11
20.1700706673
 21
153.6928355039
 31
0.0
  0
LINE
  5
E8
330
1F
100
AcDbEntity
  8
0
  6
Continuous
 62
     7
370
    25
100
AcDbLine
 10
20.1700706673
 20
153.6928355039
 30
0.0
 11
20.1700706673
 21
133.0773073758
 31
0.0
  0
LINE
  5
E9
330
1F
100
AcDbEntity
  8
0
  6
Continuous
 62
     7
370
    25
100
AcDbLine
 10
38.6700706673
 20
133.0773073758
 30
0.0
 11
38.6700706673
 21
153.6928355039
 31
0.0
  0
LINE
  5
EA
330
1F
100
AcDbEntity
  8
0
  6
Continuous
 62
     7
370
    25
100
AcDbLine
 10
-29.3299293327
 20
140.2440552885
 30
0.0
 11
-29.3299293327
 21
77.2440552885
 31
0.0
  0
LINE
  5
EB
330
1F
100
AcDbEntity
  8
0
  6
Continuous
 62
     7
370
    25
100
AcDbLine
 10
20.1700706673
 20
153.7440552885
 30
0.0
 11
20.1700706673
 21
153.6928355039
 31
0.0
  0
LINE
  5
EC
330
1F
100
AcDbEntity
  8
0
  6
Continuous
 62
     7
370
    25
100
AcDbLine
 10
38.6700706673
 20
153.7440552885
 30
0.0
 11
38.6700706673
 21
153.6928355039
 31
0.0
  0
LINE
  5
ED
330
1F
100
AcDbEntity
  8
0
  6
Continuous
 62
     7
370
    25
100
AcDbLine
 10
20.1700706673
 20
63.795275073
 30
0.0
 11
20.1700706673
 21
63.7440552885
 31
0.0
  0
LINE
  5
EE
330
1F
100
AcDbEntity
  8
0
  6
Continuous
 62
     7
370
    25
100
AcDbLine
 10
38.6700706673
 20
63.795275073
 30
0.0
 11
38.6700706673
 21
63.7440552885
 31
0.0
  0
LINE
  5
EF
330
1F
100
AcDbEntity
  8
0
  6
Continuous
 62
     7
370
    25
100
AcDbLine
 10
316.0209708225
 20
6.5522971867
 30
0.0
 11
315.703610128
 21
6.735505616
 31
0.0
  0
LINE
  5
F0
330
1F
100
AcDbEntity
  8
0
  6
Continuous
 62
     7
370
    25
100
AcDbLine
 10
290.0865834676
 20
21.2352330119
 30
0.0
 11
255.0847977989
 21
41.4413337795
 31
0.0
  0
LINE
  5
F1
330
1F
100
AcDbEntity
  8
0
  6
Continuous
 62
     7
370
    25
100
AcDbLine
 10
223.5873577208
 20
-13.1197445505
 30
0.0
 11
258.5891433896
 21
-33.3258453181
 31
0.0
  0
LWPOLYLINE
  5
F2
330
1F
100
AcDbEntity
  8
0
  6
Continuous
 62
     7
370
    25
100
AcDbPolyline
 90
       54
 70
   128
 43
0.0
 10
316.0209708225
 20
6.5522971867
 10
316.3556375216
 20
6.3507757842
 10
317.2085408048
 20
5.7555090815
 10
318.0067916651
 20
5.0747133861
 10
318.7478330643
 20
4.3105694918
 10
319.4292912234
 20
3.4655251819
 10
320.0489832265
 20
2.5422873881
 10
320.6049240131
 20
1.5438135193
 10
321.0953327375
 20
0.4733019884
 10
321.5186384726
 20
-0.6658180335
 10
321.8734852425
 20
-1.8698976015
 10
322.1587363661
 20
-3.1350796858
 10
322.373478098
 20
-4.4573115267
 10
322.5170225556
 20
-5.832357617
 10
322.5889099229
 20
-7.2558132696
 10
322.5889099229
 20
-8.7231187268
 10
322.5170225556
 20
-10.2295737669
 10
322.373478098
 20
-11.7703527603
 10
322.1587363661
 20
-13.3405201274
 10
321.8734852425
 20
-14.9350461486
 10
321.5186384726
 20
-16.5488230765
 10
321.0953327375
 20
-18.1766814971
 10
320.6049240131
 20
-19.813406889
 10
320.0489832265
 20
-21.4537563274
 10
319.4292912234
 20
-23.0924752785
 10
318.7478330643
 20
-24.7243144314
 10
318.0067916651
 20
-26.3440465135
 10
317.2085408048
 20
-27.9464830346
 10
316.3556375216
 20
-29.5264909073
 10
315.4508139217
 20
-31.0790088901
 10
314.496968428
 20
-32.5990638
 10
313.4971564951
 20
-34.0817864426
 10
312.4545808221
 20
-35.5224272105
 10
311.3725810932
 20
-36.9163712969
 10
310.2546232797
 20
-38.2591534787
 10
309.1042885375
 20
-39.5464724197
 10
307.9252617356
 20
-40.7742044493
 10
306.7213196522
 20
-41.9384167716
 10
305.4963188769
 20
-43.0353800636
 10
304.2541834565
 20
-44.0615804212
 10
302.998892325
 20
-45.0137306152
 10
301.7344665586
 20
-45.8887806215
 10
300.4649564941
 20
-46.6839273912
 10
299.1944287549
 20
-47.3966238294
 10
297.9269532245
 20
-48.0245869546
 10
296.6665900091
 20
-48.5658052116
 10
295.417376432
 20
-49.018544915
 10
294.1833141009
 20
-49.3813558033
 10
292.9683560896
 20
-49.6530756837
 10
291.7763942747
 20
-49.8328341554
 10
290.6112468694
 20
-49.9200553981
 10
289.4766461921
 20
-49.9144600156
 10
288.3762267107
 20
-49.8160659317
 10
288.3177820177
 20
-49.8081076899
  0
LWPOLYLINE
  5
F3
330
1F
100
AcDbEntity
  8
0
  6
Continuous
 62
     7
370
    25
100
AcDbPolyline
 90
      111
 70
   128
 43
0.0
 10
217.0622141525
 20
1.3023668533
 10
217.0985405092
 20
2.7917209478
 10
217.2074010903
 20
4.3181585974
 10
217.3884408152
 20
5.87670088
 10
217.6410691699
 20
7.4622641544
 10
217.9644621333
 20
9.0696766429
 10
218.3575648648
 20
10.6936953
 10
218.8190951448
 20
12.3290229144
 10
219.3475475577
 20
13.9703253874
 10
219.9411984014
 20
15.6122491314
 10
220.5981113103
 20
17.2494385325
 10
221.3161435711
 20
18.8765534191
 10
222.0929531117
 20
20.4882864806
 10
222.9260061408
 20
22.0793805789
 10
223.8125854128
 20
23.6446458956
 10
224.7497990901
 20
25.1789768607
 10
225.7345901767
 20
26.6773688055
 10
226.7637464887
 20
28.1349342869
 10
227.8339111321
 20
29.5469190292
 10
228.9415934523
 20
30.9087174317
 10
230.0831804198
 20
32.215887591
 10
231.2549484152
 20
33.4641657899
 10
232.4530753748
 20
34.6494804043
 10
233.6736532575
 20
35.7679651842
 10
234.912700792
 20
36.8159718648
 10
236.1661764628
 20
37.7900820662
 10
237.4299916928
 20
38.6871184433
 10
238.7000241793
 20
39.5041550499
 10
239.9721313404
 20
40.2385268824
 10
241.2421638269
 20
40.8878385726
 10
242.5059790568
 20
41.4499722007
 10
243.7594547276
 20
41.9230942037
 10
244.9985022622
 20
42.3056613558
 10
246.2190801449
 20
42.5964258026
 10
247.4172071045
 20
42.7944391308
 10
248.5889750999
 20
42.8990554622
 10
249.7305620674
 20
42.9099335601
 10
250.8382443876
 20
42.8270379423
 10
251.908409031
 20
42.6506389971
 10
252.937565343
 20
42.3813121012
 10
253.9223564296
 20
42.0199357429
 10
254.8595701069
 20
41.5676886569
 10
255.7461493788
 20
41.0260459791
 10
256.579202408
 20
40.3967744353
 10
257.3560119486
 20
39.6819265786
 10
258.0740442093
 20
38.883834094
 10
258.7309571183
 20
38.0051001934
 10
259.324607962
 20
37.0485911241
 10
259.8530603748
 20
36.0174268199
 10
260.3145906549
 20
34.9149707243
 10
260.7076933864
 20
33.7448188201
 10
261.0310863498
 20
32.5107878995
 10
261.2837147045
 20
31.2169031149
 10
261.4647544294
 20
29.8673848495
 10
261.5736150105
 20
28.4666349515
 10
261.6099413672
 20
27.0192223757
 10
261.5736150105
 20
25.5298682813
 10
261.4647544294
 20
24.0034306316
 10
261.2837147045
 20
22.4448883491
 10
261.0310863498
 20
20.8593250746
 10
260.7076933864
 20
19.2519125861
 10
260.3145906549
 20
17.627893929
 10
259.8530603748
 20
15.9925663146
 10
259.324607962
 20
14.3512638416
 10
258.7309571183
 20
12.7093400976
 10
258.0740442093
 20
11.0721506965
 10
257.3560119486
 20
9.44503581
 10
256.579202408
 20
7.8333027484
 10
255.7461493788
 20
6.2422086501
 10
254.8595701069
 20
4.6769433334
 10
253.9223564296
 20
3.1426123683
 10
252.937565343
 20
1.6442204235
 10
251.908409031
 20
0.1866549422
 10
250.8382443876
 20
-1.2253298001
 10
249.7305620674
 20
-2.5871282026
 10
248.5889750999
 20
-3.894298362
 10
247.4172071045
 20
-5.1425765609
 10
246.2190801449
 20
-6.3278911752
 10
244.9985022622
 20
-7.4463759551
 10
243.7594547276
 20
-8.4943826358
 10
242.5059790568
 20
-9.4684928371
 10
241.2421638269
 20
-10.3655292142
 10
239.9721313404
 20
-11.1825658208
 10
238.7000241793
 20
-11.9169376534
 10
237.4299916928
 20
-12.5662493436
 10
236.1661764628
 20
-13.1283829717
 10
234.912700792
 20
-13.6015049746
 10
233.6736532575
 20
-13.9840721267
 10
232.4530753748
 20
-14.2748365735
 10
231.2549484152
 20
-14.4728499018
 10
230.0831804198
 20
-14.5774662332
 10
228.9415934523
 20
-14.5883443311
 10
227.8339111321
 20
-14.5054487132
 10
226.7637464887
 20
-14.329049768
 10
225.7345901767
 20
-14.0597228721
 10
224.7497990901
 20
-13.6983465139
 10
223.8125854128
 20
-13.2460994278
 10
222.9260061408
 20
-12.70445675
 10
222.0929531117
 20
-12.0751852063
 10
221.3161435711
 20
-11.3603373496
 10
220.5981113103
 20
-10.562244865
 10
219.9411984014
 20
-9.6835109644
 10
219.3475475577
 20
-8.7270018951
 10
218.8190951448
 20
-7.6958375908
 10
218.3575648648
 20
-6.5933814953
 10
217.9644621333
 20
-5.4232295911
 10
217.6410691699
 20
-4.1891986705
 10
217.3884408152
 20
-2.8953138859
 10
217.2074010903
 20
-1.5457956205
 10
217.0985405092
 20
-0.1450457224
 10
217.0622141525
 20
1.3023668533
  0
LWPOLYLINE
  5
F4
330
1F
100
AcDbEntity
  8
0
  6
Continuous
 62
     7
370
    25
100
AcDbPolyline
 90
       57
 70
   128
 43
0.0
 10
290.0865834676
 20
21.2352330119
 10
290.7479350476
 20
20.8199452115
 10
291.5809880767
 20
20.1906736677
 10
292.3577976173
 20
19.475825811
 10
293.0758298781
 20
18.6777333264
 10
293.732742787
 20
17.7989994258
 10
294.3263936307
 20
16.8424903565
 10
294.8548460436
 20
15.8113260523
 10
295.3163763237
 20
14.7088699567
 10
295.7094790551
 20
13.5387180525
 10
296.0328720185
 20
12.3046871319
 10
296.2855003732
 20
11.0108023473
 10
296.4665400981
 20
9.6612840819
 10
296.5754006792
 20
8.2605341839
 10
296.6117270359
 20
6.8131216081
 10
296.5754006792
 20
5.3237675137
 10
296.4665400981
 20
3.797329864
 10
296.2855003732
 20
2.2387875815
 10
296.0328720185
 20
0.653224307
 10
295.7094790551
 20
-0.9541881815
 10
295.3163763237
 20
-2.5782068386
 10
294.8548460436
 20
-4.213534453
 10
294.3263936307
 20
-5.854836926
 10
293.732742787
 20
-7.49676067
 10
293.0758298781
 20
-9.1339500711
 10
292.3577976173
 20
-10.7610649577
 10
291.5809880767
 20
-12.3727980192
 10
290.7479350476
 20
-13.9638921175
 10
289.8613557757
 20
-15.5291574342
 10
288.9241420983
 20
-17.0634883993
 10
287.9393510117
 20
-18.5618803441
 10
286.9101946997
 20
-20.0194458254
 10
285.8400300563
 20
-21.4314305677
 10
284.7323477361
 20
-22.7932289702
 10
283.5907607686
 20
-24.1003991296
 10
282.4189927733
 20
-25.3486773285
 10
281.2208658136
 20
-26.5339919428
 10
280.0002879309
 20
-27.6524767228
 10
278.7612403964
 20
-28.7004834034
 10
277.5077647256
 20
-29.6745936047
 10
276.2439494956
 20
-30.5716299818
 10
274.9739170091
 20
-31.3886665884
 10
273.701809848
 20
-32.123038421
 10
272.4317773615
 20
-32.7723501112
 10
271.1679621316
 20
-33.3344837393
 10
269.9144864608
 20
-33.8076057422
 10
268.6754389263
 20
-34.1901728944
 10
267.4548610435
 20
-34.4809373411
 10
266.2567340839
 20
-34.6789506694
 10
265.0849660885
 20
-34.7835670008
 10
263.943379121
 20
-34.7944450987
 10
262.8356968008
 20
-34.7115494809
 10
261.7655321574
 20
-34.5351505356
 10
260.7363758454
 20
-34.2658236397
 10
259.7515847588
 20
-33.9044472815
 10
258.8143710815
 20
-33.4522001955
 10
258.5891433896
 20
-33.3258453181
  0
LWPOLYLINE
  5
F5
330
1F
100
AcDbEntity
  8
0
  6
Continuous
 62
     7
370
    25
100
AcDbPolyline
 90
      101
 70
   128
 43
0.0
 10
221.1634334833
 20
3.6699503776
 10
221.1992930457
 20
5.0083169224
 10
221.3067302114
 20
6.3828041153
 10
221.485320975
 20
7.7879874833
 10
221.7343605204
 20
9.2183214096
 10
222.0528660024
 20
10.6681610196
 10
222.4395804251
 20
12.1317844588
 10
222.8929776036
 20
13.6034154741
 10
223.4112681863
 20
15.0772462102
 10
223.992406717
 20
16.5474601306
 10
224.6340997074
 20
18.0082549725
 10
225.3338146885
 20
19.4538656462
 10
226.088790205
 20
20.8785869866
 10
226.8960467133
 20
22.2767962696
 10
227.7523983408
 20
23.642975402
 10
228.654465459
 20
24.9717326988
 10
229.5986880209
 20
26.257824162
 10
230.5813396115
 20
27.4961741761
 10
231.5985421539
 20
28.6818955395
 10
232.6462812145
 20
29.8103087517
 10
233.7204218457
 20
30.8769604811
 10
234.8167249052
 20
31.8776411407
 10
235.9308637858
 20
32.8084015011
 10
237.0584414902
 20
33.6655682764
 10
238.1950079845
 20
34.445758621
 10
239.3360777598
 20
35.14589348
 10
240.4771475352
 20
35.7632097409
 10
241.6137140294
 20
36.2952711385
 10
242.7412917339
 20
36.7399778696
 10
243.8554306144
 20
37.0955748798
 10
244.951733674
 20
37.3606587902
 10
246.0258743052
 20
37.5341834357
 10
247.0736133657
 20
37.6154639938
 10
248.0908159082
 20
37.6041796873
 10
249.0734674988
 20
37.5003750501
 10
250.0176900607
 20
37.3044597519
 10
250.9197571788
 20
37.0172069806
 10
251.7761088064
 20
36.6397503919
 10
252.5833653147
 20
36.1735796344
 10
253.3383408311
 20
35.6205344711
 10
254.0380558123
 20
34.9827975185
 10
254.6797488027
 20
34.2628856332
 10
255.2608873334
 20
33.4636399785
 10
255.7791779161
 20
32.5882148117
 10
256.2325750945
 20
31.640065036
 10
256.6192895173
 20
30.6229325655
 10
256.9377949992
 20
29.5408315574
 10
257.1868345447
 20
28.3980325699
 10
257.3654253083
 20
27.1990457086
 10
257.472862474
 20
25.9486028269
 10
257.5087220363
 20
24.6516388514
 10
257.472862474
 20
23.3132723066
 10
257.3654253083
 20
21.9387851137
 10
257.1868345447
 20
20.5336017457
 10
256.9377949992
 20
19.1032678194
 10
256.6192895173
 20
17.6534282094
 10
256.2325750945
 20
16.1898047702
 10
255.7791779161
 20
14.7181737549
 10
255.2608873334
 20
13.2443430188
 10
254.6797488027
 20
11.7741290984
 10
254.0380558123
 20
10.3133342565
 10
253.3383408311
 20
8.8677235829
 10
252.5833653147
 20
7.4430022424
 10
251.7761088064
 20
6.0447929594
 10
250.9197571788
 20
4.678613827
 10
250.0176900607
 20
3.3498565303
 10
249.0734674988
 20
2.0637650671
 10
248.0908159082
 20
0.8254150529
 10
247.0736133657
 20
-0.3603063105
 10
246.0258743052
 20
-1.4887195226
 10
244.951733674
 20
-2.555371252
 10
243.8554306144
 20
-3.5560519116
 10
242.7412917339
 20
-4.4868122721
 10
241.6137140294
 20
-5.3439790474
 10
240.4771475352
 20
-6.124169392
 10
239.3360777598
 20
-6.8243042509
 10
238.1950079845
 20
-7.4416205119
 10
237.0584414902
 20
-7.9736819095
 10
235.9308637858
 20
-8.4183886405
 10
234.8167249052
 20
-8.7739856507
 10
233.7204218457
 20
-9.0390695611
 10
232.6462812145
 20
-9.2125942066
 10
231.5985421539
 20
-9.2938747647
 10
230.5813396115
 20
-9.2825904582
 10
229.5986880209
 20
-9.1787858211
 10
228.654465459
 20
-8.9828705228
 10
227.7523983408
 20
-8.6956177516
 10
226.8960467133
 20
-8.3181611629
 10
226.088790205
 20
-7.8519904053
 10
225.3338146885
 20
-7.298945242
 10
224.6340997074
 20
-6.6612082895
 10
223.992406717
 20
-5.9412964042
 10
223.4112681863
 20
-5.1420507494
 10
222.8929776036
 20
-4.2666255826
 10
222.4395804251
 20
-3.318475807
 10
222.0528660024
 20
-2.3013433365
 10
221.7343605204
 20
-1.2192423284
 10
221.485320975
 20
-0.0764433409
 10
221.3067302114
 20
1.1225435204
 10
221.1992930457
 20
2.3729864022
 10
221.1634334833
 20
3.6699503776
  0
LWPOLYLINE
  5
F6
330
1F
100
AcDbEntity
  8
0
  6
Continuous
 62
     7
370
    25
100
AcDbPolyline
 90
       35
 70
   128
 43
0.0
 10
228.2345012952
 20
-0.4120901815
 10
228.2703608575
 20
0.9262763633
 10
228.3777980232
 20
2.3007635562
 10
228.5563887869
 20
3.7059469242
 10
228.8054283323
 20
5.1362808505
 10
229.1239338142
 20
6.5861204605
 10
229.510648237
 20
8.0497438997
 10
229.9640454155
 20
9.521374915
 10
230.4823359981
 20
10.9952056511
 10
231.0634745288
 20
12.4654195715
 10
231.7051675193
 20
13.9262144134
 10
232.4048825004
 20
15.3718250871
 10
233.1598580168
 20
16.7965464275
 10
233.9671145252
 20
18.1947557105
 10
234.8234661527
 20
19.5609348429
 10
235.7255332708
 20
20.8896921396
 10
236.6697558327
 20
22.1757836028
 10
237.6524074234
 20
23.414133617
 10
238.6696099658
 20
24.5998549804
 10
239.7173490263
 20
25.7282681925
 10
240.7914896575
 20
26.794919922
 10
241.8877927171
 20
27.7956005816
 10
243.0019315977
 20
28.726360942
 10
244.1295093021
 20
29.5835277173
 10
245.2660757964
 20
30.3637180619
 10
246.4071455717
 20
31.0638529209
 10
247.548215347
 20
31.6811691818
 10
248.6847818413
 20
32.2132305794
 10
249.8123595457
 20
32.6579373105
 10
250.9264984263
 20
33.0135343207
 10
252.0228014859
 20
33.278618231
 10
253.0969421171
 20
33.4521428766
 10
254.1446811776
 20
33.5334234347
 10
255.16188372
 20
33.5221391282
 10
255.2247378083
 20
33.5183350247
  0
ARC
  5
F7
330
1F
100
AcDbEntity
  8
0
  6
Continuous
 62
     7
370
    25
100
AcDbCircle
 10
244.0668785083
 20
-1.0613221538
 30
0.0
 40
15.84568302007645
100
AcDbArc
 50
177.6518104442
 51
211.2379364788
  0
LWPOLYLINE
  5
F8
330
1F
100
AcDbEntity
  8
0
  6
Continuous
 62
     7
370
    25
100
AcDbPolyline
 90
       34
 70
   128
 43
0.0
 10
229.6487148576
 20
-0.4120901815
 10
229.6845996775
 20
0.9008296353
 10
229.792106679
 20
2.2497861142
 10
229.9707940926
 20
3.6292361036
 10
230.2199276535
 20
5.0335111477
 10
230.5384836183
 20
6.456840779
 10
230.9251529724
 20
7.8933762309
 10
231.3783468084
 20
9.337214471
 10
231.8962028557
 20
10.7824224583
 10
232.4765931325
 20
12.2230615232
 10
233.1171326909
 20
13.6532117707
 10
233.8151894163
 20
15.0669964067
 10
234.567894844
 20
16.4586058869
 10
235.3721559459
 20
17.8223217894
 10
236.2246678406
 20
19.1525403131
 10
237.1219273738
 20
20.4437953047
 10
238.0602475138
 20
21.6907807205
 10
239.0357725017
 20
22.8883724299
 10
240.0444936961
 20
24.0316492717
 10
241.0822660453
 20
25.1159132762
 10
242.1448251201
 20
26.13670897
 10
243.2278046374
 20
27.0898416846
 10
244.3267544019
 20
27.9713947932
 10
245.4371585935
 20
28.777745805
 10
246.554454323
 20
29.5055812508
 10
247.6740503828
 20
30.1519102986
 10
248.7913461123
 20
30.7140770436
 10
249.9017503038
 20
31.1897714223
 10
251.0007000684
 20
31.5770387042
 10
252.0836795856
 20
31.8742875251
 10
253.1462386605
 20
32.0802964259
 10
254.1840110097
 20
32.1942188717
 10
255.1927322041
 20
32.2155867308
 10
255.9943761408
 20
32.1640665299
  0
ARC
  5
F9
330
1F
100
AcDbEntity
  8
0
  6
Continuous
 62
     7
370
    25
100
AcDbCircle
 10
244.5936007233
 20
-1.0763365642
 30
0.0
 40
14.95964026292875
100
AcDbArc
 50
177.4550837672
 51
213.201587744
  0
ARC
  5
FA
330
1F
100
AcDbEntity
  8
0
  6
Continuous
 62
     7
370
    25
100
AcDbCircle
 10
253.1533980943
 20
-6.0512732061
 30
0.0
 40
42.4086001140972
100
AcDbArc
 50
297.6289311082
 51
302.3656923591
  0
LINE
  5
FB
330
1F
100
AcDbEntity
  8
0
  6
Continuous
 62
     7
370
    25
100
AcDbLine
 10
272.8201089778
 20
-43.6240006379
 30
0.0
 11
247.5713466319
 21
-41.3663808104
 31
0.0
  0
ARC
  5
FC
330
1F
100
AcDbEntity
  8
0
  6
Continuous
 62
     7
370
    25
100
AcDbCircle
 10
261.6068611528
 20
-29.8887029363
 30
0.0
 40
18.13098886567457
100
AcDbArc
 50
210.9264271959
 51
219.2749157968
  0
LINE
  5
FD
330
1F
100
AcDbEntity
  8
0
  6
Continuous
 62
     7
370
    25
100
AcDbLine
 10
246.0535921811
 20
-39.2068884647
 30
0.0
 11
246.0535921811
 21
-26.0892256412
 31
0.0
  0
ARC
  5
FE
330
1F
100
AcDbEntity
  8
0
  6
Continuous
 62
     7
370
    25
100
AcDbCircle
 10
294.9396938427
 20
-4.9833520333
 30
0.0
 40
41.20284313317106
100
AcDbArc
 50
117.5920951164
 51
120.5171192779
  0
LINE
  5
FF
330
1F
100
AcDbEntity
  8
0
  6
Continuous
 62
     7
370
    25
100
AcDbLine
 10
275.8556178793
 20
31.5333883317
 30
0.0
 11
301.1043802253
 21
29.2757685042
 31
0.0
  0
ARC
  5
100
330
1F
100
AcDbEntity
  8
0
  6
Continuous
 62
     7
370
    25
100
AcDbCircle
 10
287.0688657044
 20
17.7980906301
 30
0.0
 40
18.13098886567251
100
AcDbArc
 50
30.9264271959
 51
39.2749157968
  0
LINE
  5
101
330
1F
100
AcDbEntity
  8
0
  6
Continuous
 62
     7
370
    25
100
AcDbLine
 10
302.622134676
 20
27.1162761585
 30
0.0
 11
302.622134676
 21
-6.5505639918
 31
0.0
  0
ARC
  5
102
330
1F
100
AcDbEntity
  8
0
  6
Continuous
 62
     7
370
    25
100
AcDbCircle
 10
234.0697715003
 20
17.7966009906
 30
0.0
 40
72.74758373763278
100
AcDbArc
 50
337.1417234065
 51
340.4469168532
  0
LINE
  5
103
330
1F
100
AcDbEntity
  8
0
  6
Continuous
 62
     7
370
    25
100
AcDbLine
 10
301.1043802253
 20
-10.4624183263
 30
0.0
 11
275.8556178793
 21
-41.8716386491
 31
0.0
  0
LINE
  5
104
330
1F
100
AcDbEntity
  8
0
  6
Continuous
 62
     7
370
    25
100
AcDbLine
 10
275.8556178793
 20
-41.8716386491
 30
0.0
 11
288.9370933313
 21
-49.4234136834
 31
0.0
  0
LINE
  5
105
330
1F
100
AcDbEntity
  8
0
  6
Continuous
 62
     7
370
    25
100
AcDbLine
 10
314.1858556772
 20
-18.0141933606
 30
0.0
 11
301.1043802253
 21
-10.4624183263
 31
0.0
  0
LINE
  5
106
330
1F
100
AcDbEntity
  8
0
  6
Continuous
 62
     7
370
    25
100
AcDbLine
 10
288.9370933313
 20
-49.4234136834
 30
0.0
 11
314.1858556772
 21
-18.0141933606
 31
0.0
  0
LINE
  5
107
330
1F
100
AcDbEntity
  8
0
  6
Continuous
 62
     7
370
    25
100
AcDbLine
 10
302.622134676
 20
-6.5505639918
 30
0.0
 11
315.703610128
 21
-14.1023390262
 31
0.0
  0
ARC
  5
108
330
1F
100
AcDbEntity
  8
0
  6
Continuous
 62
     7
370
    25
100
AcDbCircle
 10
247.1512469521
 20
10.2448259563
 30
0.0
 40
72.7475837377328
100
AcDbArc
 50
337.1417234065
 51
340.4469168532
  0
LINE
  5
109
330
1F
100
AcDbEntity
  8
0
  6
Continuous
 62
     7
370
    25
100
AcDbLine
 10
315.703610128
 20
19.5645011242
 30
0.0
 11
302.622134676
 21
27.1162761585
 31
0.0
  0
LINE
  5
10A
330
1F
100
AcDbEntity
  8
0
  6
Continuous
 62
     7
370
    25
100
AcDbLine
 10
315.703610128
 20
-14.1023390262
 30
0.0
 11
315.703610128
 21
19.5645011242
 31
0.0
  0
LINE
  5
10B
330
1F
100
AcDbEntity
  8
0
  6
Continuous
 62
     7
370
    25
100
AcDbLine
 10
285.9015844297
 20
-51.1757756722
 30
0.0
 11
272.8201089778
 21
-43.6240006379
 31
0.0
  0
ARC
  5
10C
330
1F
100
AcDbEntity
  8
0
  6
Continuous
 62
     7
370
    25
100
AcDbCircle
 10
266.2348735463
 20
-13.6030482405
 30
0.0
 40
42.40860011408466
100
AcDbArc
 50
297.6289311082
 51
302.3656923591
  0
LINE
  5
10D
330
1F
100
AcDbEntity
  8
0
  6
Continuous
 62
     7
370
    25
100
AcDbLine
 10
247.5713466319
 20
-41.3663808104
 30
0.0
 11
260.6528220838
 21
-48.9181558447
 31
0.0
  0
LINE
  5
10E
330
1F
100
AcDbEntity
  8
0
  6
Continuous
 62
     7
370
    25
100
AcDbLine
 10
260.6528220838
 20
-48.9181558447
 30
0.0
 11
285.9015844297
 21
-51.1757756722
 31
0.0
  0
LINE
  5
10F
330
1F
100
AcDbEntity
  8
0
  6
Continuous
 62
     7
370
    25
100
AcDbLine
 10
301.1043802253
 20
29.2757685042
 30
0.0
 11
314.1858556772
 21
21.7239934698
 31
0.0
  0
ARC
  5
110
330
1F
100
AcDbEntity
  8
0
  6
Continuous
 62
     7
370
    25
100
AcDbCircle
 10
300.1503411563
 20
10.2463155957
 30
0.0
 40
18.13098886568608
100
AcDbArc
 50
30.9264271959
 51
39.2749157968
  0
LINE
  5
111
330
1F
100
AcDbEntity
  8
0
  6
Continuous
 62
     7
370
    25
100
AcDbLine
 10
108.0823425481
 20
22.6104165383
 30
0.0
 11
108.0823425481
 21
4.6104165383
 31
0.0
  0
LINE
  5
112
330
1F
100
AcDbEntity
  8
0
  6
Continuous
 62
     7
370
    25
100
AcDbLine
 10
171.5823425481
 20
4.6104165383
 30
0.0
 11
171.5823425481
 21
22.6104165383
 31
0.0
  0
LINE
  5
113
330
1F
100
AcDbEntity
  8
0
  6
Continuous
 62
     7
370
    25
100
AcDbLine
 10
108.3323425481
 20
-13.8895834617
 30
0.0
 11
108.3323425481
 21
-63.3895834617
 31
0.0
  0
LINE
  5
114
330
1F
100
AcDbEntity
  8
0
  6
Continuous
 62
     7
370
    25
100
AcDbLine
 10
171.3323425481
 20
-63.3895834617
 30
0.0
 11
171.3323425481
 21
-13.8895834617
 31
0.0
  0
LINE
  5
115
330
1F
100
AcDbEntity
  8
0
  6
Continuous
 62
     7
370
    25
100
AcDbLine
 10
108.0823425481
 20
22.6104165383
 30
0.0
 11
171.5823425481
 21
22.6104165383
 31
0.0
  0
LINE
  5
116
330
1F
100
AcDbEntity
  8
0
  6
Continuous
 62
     7
370
    25
100
AcDbLine
 10
137.6859136194
 20
-13.8895834617
 30
0.0
 11
141.9787714767
 21
-13.8895834617
 31
0.0
  0
LINE
  5
117
330
1F
100
AcDbEntity
  8
0
  6
Continuous
 62
     7
370
    25
100
AcDbLine
 10
137.6859136194
 20
-13.8895834617
 30
0.0
 11
137.6859136194
 21
4.6104165383
 31
0.0
  0
LINE
  5
118
330
1F
100
AcDbEntity
  8
0
  6
Continuous
 62
     7
370
    25
100
AcDbLine
 10
137.6859136194
 20
4.6104165383
 30
0.0
 11
141.9787714767
 21
4.6104165383
 31
0.0
  0
LINE
  5
119
330
1F
100
AcDbEntity
  8
0
  6
Continuous
 62
     7
370
    25
100
AcDbLine
 10
141.9787714767
 20
4.6104165383
 30
0.0
 11
141.9787714767
 21
-13.8895834617
 31
0.0
  0
LINE
  5
11A
330
1F
100
AcDbEntity
  8
0
  6
Continuous
 62
     7
370
    25
100
AcDbLine
 10
101.9787714767
 20
4.6104165383
 30
0.0
 11
101.9787714767
 21
-13.8895834617
 31
0.0
  0
LINE
  5
11B
330
1F
100
AcDbEntity
  8
0
  6
Continuous
 62
     7
370
    25
100
AcDbLine
 10
101.9787714767
 20
-13.8895834617
 30
0.0
 11
137.6859136194
 21
-13.8895834617
 31
0.0
  0
LINE
  5
11C
330
1F
100
AcDbEntity
  8
0
  6
Continuous
 62
     7
370
    25
100
AcDbLine
 10
137.6859136194
 20
4.6104165383
 30
0.0
 11
101.9787714767
 21
4.6104165383
 31
0.0
  0
LINE
  5
11D
330
1F
100
AcDbEntity
  8
0
  6
Continuous
 62
     7
370
    25
100
AcDbLine
 10
177.6859136194
 20
-13.8895834617
 30
0.0
 11
177.6859136194
 21
4.6104165383
 31
0.0
  0
LINE
  5
11E
330
1F
100
AcDbEntity
  8
0
  6
Continuous
 62
     7
370
    25
100
AcDbLine
 10
141.9787714767
 20
-13.8895834617
 30
0.0
 11
177.6859136194
 21
-13.8895834617
 31
0.0
  0
LINE
  5
11F
330
1F
100
AcDbEntity
  8
0
  6
Continuous
 62
     7
370
    25
100
AcDbLine
 10
177.6859136194
 20
4.6104165383
 30
0.0
 11
141.9787714767
 21
4.6104165383
 31
0.0
  0
LINE
  5
120
330
1F
100
AcDbEntity
  8
0
  6
Continuous
 62
     7
370
    25
100
AcDbLine
 10
108.3323425481
 20
-63.3895834617
 30
0.0
 11
171.3323425481
 21
-63.3895834617
 31
0.0
  0
LINE
  5
121
330
1F
100
AcDbEntity
  8
0
  6
Continuous
 62
     7
370
    25
100
AcDbLine
 10
179.8323425481
 20
4.6104165383
 30
0.0
 11
179.8323425481
 21
-13.8895834617
 31
0.0
  0
LINE
  5
122
330
1F
100
AcDbEntity
  8
0
  6
Continuous
 62
     7
370
    25
100
AcDbLine
 10
177.6859136194
 20
-13.8895834617
 30
0.0
 11
179.8323425481
 21
-13.8895834617
 31
0.0
  0
LINE
  5
123
330
1F
100
AcDbEntity
  8
0
  6
Continuous
 62
     7
370
    25
100
AcDbLine
 10
177.6859136194
 20
4.6104165383
 30
0.0
 11
179.8323425481
 21
4.6104165383
 31
0.0
  0
LINE
  5
124
330
1F
100
AcDbEntity
  8
0
  6
Continuous
 62
     7
370
    25
100
AcDbLine
 10
99.8323425481
 20
-13.8895834617
 30
0.0
 11
99.8323425481
 21
4.6104165383
 31
0.0
  0
LINE
  5
125
330
1F
100
AcDbEntity
  8
0
  6
Continuous
 62
     7
370
    25
100
AcDbLine
 10
99.8323425481
 20
-13.8895834617
 30
0.0
 11
101.9787714767
 21
-13.8895834617
 31
0.0
  0
LINE
  5
126
330
1F
100
AcDbEntity
  8
0
  6
Continuous
 62
     7
370
    25
100
AcDbLine
 10
99.8323425481
 20
4.6104165383
 30
0.0
 11
101.9787714767
 21
4.6104165383
 31
0.0
  0
ENDSEC
  0
SECTION
  2
OBJECTS
  0
DICTIONARY
  5
C
330
0
100
AcDbDictionary
281
     1
  3
ACAD_GROUP
350
D
  3
ACAD_LAYOUT
350
1A
  3
ACAD_MLINESTYLE
350
17
  3
ACAD_PLOTSETTINGS
350
19
  3
ACAD_PLOTSTYLENAME
350
E
  3
ACAD_SCALELIST
350
47
  3
DWGPROPS
350
127
  0
DICTIONARY
  5
D
102
{ACAD_REACTORS
330
C
102
}
330
C
100
AcDbDictionary
281
     1
  0
DICTIONARY
  5
1A
102
{ACAD_REACTORS
330
C
102
}
330
C
100
AcDbDictionary
281
     1
  3
Layout1
350
1E
  3
Layout2
350
26
  3
Model
350
22
  0
DICTIONARY
  5
17
102
{ACAD_REACTORS
330
C
102
}
330
C
100
AcDbDictionary
281
     1
  3
Standard
350
18
  0
DICTIONARY
  5
19
102
{ACAD_REACTORS
330
C
102
}
330
C
100
AcDbDictionary
281
     1
  0
ACDBDICTIONARYWDFLT
  5
E
102
{ACAD_REACTORS
330
C
102
}
330
C
100
AcDbDictionary
281
     1
  3
Normal
350
F
100
AcDbDictionaryWithDefault
340
F
  0
DICTIONARY
  5
47
102
{ACAD_REACTORS
330
C
102
}
330
C
100
AcDbDictionary
281
     1
  3
A0
350
48
  3
A1
350
49
  3
A2
350
4A
  3
A3
350
4B
  3
A4
350
4C
  3
A5
350
4D
  3
A6
350
4E
  3
A7
350
4F
  3
A8
350
50
  3
A9
350
51
  3
B0
350
52
  3
B1
350
53
  3
B2
350
54
  3
B3
350
55
  3
B4
350
56
  3
B5
350
57
  3
B6
350
58
  3
B7
350
59
  3
B8
350
5A
  3
B9
350
5B
  3
C0
350
5C
  3
C1
350
5D
  3
C2
350
5E
  3
C3
350
5F
  3
C4
350
60
  3
C5
350
61
  3
C6
350
62
  3
C7
350
63
  3
C8
350
64
  3
C9
350
65
  3
D0
350
66
  3
D1
350
67
  3
D2
350
68
  0
XRECORD
  5
127
102
{ACAD_REACTORS
330
C
102
}
330
C
100
AcDbXrecord
280
     1
  1
DWGPROPS COOKIE
  2

  3

  4

  6

  7

  8
b.kav
  9

300
=
301
=
302
=
303
=
304
=
305
=
306
=
307
=
308
=
309
=
 40
0.0
 41
2459935.584321447
 42
2459935.584321632
  1

 90
        0
  0
LAYOUT
  5
1E
102
{ACAD_REACTORS
330
1A
102
}
330
1A
100
AcDbPlotSettings
  1

  2
none_device
  4

  6

 40
0.0
 41
0.0
 42
0.0
 43
0.0
 44
0.0
 45
0.0
 46
0.0
 47
0.0
 48
0.0
 49
0.0
140
0.0
141
0.0
142
1.0
143
1.0
 70
   688
 72
     1
 73
     0
 74
     5
  7

 75
    16
147
1.0
148
0.0
149
0.0
100
AcDbLayout
  1
Layout1
 70
     1
 71
     1
 10
0.0
 20
0.0
 11
420.0
 21
297.0
 12
0.0
 22
0.0
 32
0.0
 14
1.0000000000E+20
 24
1.0000000000E+20
 34
1.0000000000E+20
 15
-1.0000000000E+20
 25
-1.0000000000E+20
 35
-1.0000000000E+20
146
0.0
 13
0.0
 23
0.0
 33
0.0
 16
1.0
 26
0.0
 36
0.0
 17
0.0
 27
1.0
 37
0.0
 76
     0
330
1B
  0
LAYOUT
  5
26
102
{ACAD_REACTORS
330
1A
102
}
330
1A
100
AcDbPlotSettings
  1

  2
none_device
  4

  6

 40
0.0
 41
0.0
 42
0.0
 43
0.0
 44
0.0
 45
0.0
 46
0.0
 47
0.0
 48
0.0
 49
0.0
140
0.0
141
0.0
142
1.0
143
1.0
 70
   688
 72
     1
 73
     0
 74
     5
  7

 75
    16
147
1.0
148
0.0
149
0.0
100
AcDbLayout
  1
Layout2
 70
     1
 71
     2
 10
0.0
 20
0.0
 11
0.0
 21
0.0
 12
0.0
 22
0.0
 32
0.0
 14
0.0
 24
0.0
 34
0.0
 15
0.0
 25
0.0
 35
0.0
146
0.0
 13
0.0
 23
0.0
 33
0.0
 16
1.0
 26
0.0
 36
0.0
 17
0.0
 27
1.0
 37
0.0
 76
     0
330
23
  0
LAYOUT
  5
22
102
{ACAD_REACTORS
330
1A
102
}
330
1A
100
AcDbPlotSettings
  1

  2
none_device
  4
Letter_(8.50_x_11.00_Inches)
  6

 40
6.35
 41
6.35
 42
6.35000508
 43
6.35000508
 44
215.9
 45
279.4
 46
0.0
 47
0.0
 48
0.0
 49
0.0
140
0.0
141
0.0
142
1.0
143
1.0
 70
  1712
 72
     1
 73
     0
 74
     0
  7

 75
     0
147
1.0
148
0.0
149
0.0
100
AcDbLayout
  1
Model
 70
     1
 71
     0
 10
0.0
 20
0.0
 11
279.4
 21
215.9
 12
0.0
 22
0.0
 32
0.0
 14
0.0
 24
0.0
 34
0.0
 15
279.4
 25
215.9
 35
0.0
146
0.0
 13
0.0
 23
0.0
 33
0.0
 16
1.0
 26
0.0
 36
0.0
 17
0.0
 27
1.0
 37
0.0
 76
     0
330
1F
331
29
  0
MLINESTYLE
  5
18
102
{ACAD_REACTORS
330
17
102
}
330
17
100
AcDbMlineStyle
  2
Standard
 70
     0
  3

 62
   256
 51
90.0
 52
90.0
 71
     2
 49
0.5
 62
   256
  6
BYLAYER
 49
-0.5
 62
   256
  6
BYLAYER
  0
ACDBPLACEHOLDER
  5
F
102
{ACAD_REACTORS
330
E
102
}
330
E
  0
SCALE
  5
48
102
{ACAD_REACTORS
330
47
102
}
330
47
100
AcDbScale
 70
     0
300
1:1
140
1.0
141
1.0
290
     1
  0
SCALE
  5
49
102
{ACAD_REACTORS
330
47
102
}
330
47
100
AcDbScale
 70
     0
300
1:2
140
1.0
141
2.0
290
     0
  0
SCALE
  5
4A
102
{ACAD_REACTORS
330
47
102
}
330
47
100
AcDbScale
 70
     0
300
1:4
140
1.0
141
4.0
290
     0
  0
SCALE
  5
4B
102
{ACAD_REACTORS
330
47
102
}
330
47
100
AcDbScale
 70
     0
300
1:5
140
1.0
141
5.0
290
     0
  0
SCALE
  5
4C
102
{ACAD_REACTORS
330
47
102
}
330
47
100
AcDbScale
 70
     0
300
1:8
140
1.0
141
8.0
290
     0
  0
SCALE
  5
4D
102
{ACAD_REACTORS
330
47
102
}
330
47
100
AcDbScale
 70
     0
300
1:10
140
1.0
141
10.0
290
     0
  0
SCALE
  5
4E
102
{ACAD_REACTORS
330
47
102
}
330
47
100
AcDbScale
 70
     0
300
1:16
140
1.0
141
16.0
290
     0
  0
SCALE
  5
4F
102
{ACAD_REACTORS
330
47
102
}
330
47
100
AcDbScale
 70
     0
300
1:20
140
1.0
141
20.0
290
     0
  0
SCALE
  5
50
102
{ACAD_REACTORS
330
47
102
}
330
47
100
AcDbScale
 70
     0
300
1:30
140
1.0
141
30.0
290
     0
  0
SCALE
  5
51
102
{ACAD_REACTORS
330
47
102
}
330
47
100
AcDbScale
 70
     0
300
1:40
140
1.0
141
40.0
290
     0
  0
SCALE
  5
52
102
{ACAD_REACTORS
330
47
102
}
330
47
100
AcDbScale
 70
     0
300
1:50
140
1.0
141
50.0
290
     0
  0
SCALE
  5
53
102
{ACAD_REACTORS
330
47
102
}
330
47
100
AcDbScale
 70
     0
300
1:100
140
1.0
141
100.0
290
     0
  0
SCALE
  5
54
102
{ACAD_REACTORS
330
47
102
}
330
47
100
AcDbScale
 70
     0
300
2:1
140
2.0
141
1.0
290
     0
  0
SCALE
  5
55
102
{ACAD_REACTORS
330
47
102
}
330
47
100
AcDbScale
 70
     0
300
4:1
140
4.0
141
1.0
290
     0
  0
SCALE
  5
56
102
{ACAD_REACTORS
330
47
102
}
330
47
100
AcDbScale
 70
     0
300
8:1
140
8.0
141
1.0
290
     0
  0
SCALE
  5
57
102
{ACAD_REACTORS
330
47
102
}
330
47
100
AcDbScale
 70
     0
300
10:1
140
10.0
141
1.0
290
     0
  0
SCALE
  5
58
102
{ACAD_REACTORS
330
47
102
}
330
47
100
AcDbScale
 70
     0
300
100:1
140
100.0
141
1.0
290
     0
  0
SCALE
  5
59
102
{ACAD_REACTORS
330
47
102
}
330
47
100
AcDbScale
 70
     0
300
1/128" = 1'-0"
140
0.0078125
141
12.0
290
     0
  0
SCALE
  5
5A
102
{ACAD_REACTORS
330
47
102
}
330
47
100
AcDbScale
 70
     0
300
1/64" = 1'-0"
140
0.015625
141
12.0
290
     0
  0
SCALE
  5
5B
102
{ACAD_REACTORS
330
47
102
}
330
47
100
AcDbScale
 70
     0
300
1/32" = 1'-0"
140
0.03125
141
12.0
290
     0
  0
SCALE
  5
5C
102
{ACAD_REACTORS
330
47
102
}
330
47
100
AcDbScale
 70
     0
300
1/16" = 1'-0"
140
0.0625
141
12.0
290
     0
  0
SCALE
  5
5D
102
{ACAD_REACTORS
330
47
102
}
330
47
100
AcDbScale
 70
     0
300
3/32" = 1'-0"
140
0.09375
141
12.0
290
     0
  0
SCALE
  5
5E
102
{ACAD_REACTORS
330
47
102
}
330
47
100
AcDbScale
 70
     0
300
1/8" = 1'-0"
140
0.125
141
12.0
290
     0
  0
SCALE
  5
5F
102
{ACAD_REACTORS
330
47
102
}
330
47
100
AcDbScale
 70
     0
300
3/16" = 1'-0"
140
0.1875
141
12.0
290
     0
  0
SCALE
  5
60
102
{ACAD_REACTORS
330
47
102
}
330
47
100
AcDbScale
 70
     0
300
1/4" = 1'-0"
140
0.25
141
12.0
290
     0
  0
SCALE
  5
61
102
{ACAD_REACTORS
330
47
102
}
330
47
100
AcDbScale
 70
     0
300
3/8" = 1'-0"
140
0.375
141
12.0
290
     0
  0
SCALE
  5
62
102
{ACAD_REACTORS
330
47
102
}
330
47
100
AcDbScale
 70
     0
300
1/2" = 1'-0"
140
0.5
141
12.0
290
     0
  0
SCALE
  5
63
102
{ACAD_REACTORS
330
47
102
}
330
47
100
AcDbScale
 70
     0
300
3/4" = 1'-0"
140
0.75
141
12.0
290
     0
  0
SCALE
  5
64
102
{ACAD_REACTORS
330
47
102
}
330
47
100
AcDbScale
 70
     0
300
1" = 1'-0"
140
1.0
141
12.0
290
     0
  0
SCALE
  5
65
102
{ACAD_REACTORS
330
47
102
}
330
47
100
AcDbScale
 70
     0
300
1-1/2" = 1'-0"
140
1.5
141
12.0
290
     0
  0
SCALE
  5
66
102
{ACAD_REACTORS
330
47
102
}
330
47
100
AcDbScale
 70
     0
300
3" = 1'-0"
140
3.0
141
12.0
290
     0
  0
SCALE
  5
67
102
{ACAD_REACTORS
330
47
102
}
330
47
100
AcDbScale
 70
     0
300
6" = 1'-0"
140
6.0
141
12.0
290
     0
  0
SCALE
  5
68
102
{ACAD_REACTORS
330
47
102
}
330
47
100
AcDbScale
 70
     0
300
1'-0" = 1'-0"
140
12.0
141
12.0
290
     0
  0
ENDSEC
  0
EOF
